Song name
# A B C D E F G H I J K L M N O P Q R S T U V W X Y Z

Led Zeppelin - Bron Yr Aur tab

                             Bron-Yr-Aur - Led Zeppelin
-------------------------------------------------------------------------------
Tabbed by: A.D.L.R

Tuning: C-A-C-G-C-E

.=Sections of the song
         
        Intro (repeat)   .
e|----------0-------------.----------3p0------------------------------------|
C|-------------------0----.---2-----------2------------0-----------0--------|
G|--------0--------0------.--------0---------0-------0-----------0----------|
C|------0--------0--------.------2-------------x---0-----------0------------|
A|--2/3-------------------.---2----------------2/3--------------------------|
C|-------------0----------.---------------------------------0---------------|

e|----------0---------------- -----------.---------------------------------------|
C|--5----------------0---------0-----0---.-----------0---------4-----------------|
G|-------4---------4---------0-----0-----.----0--------------0-------------------|
C|-----0---------0---------0------0------.---------0-------0---------------------|
A|--5----------5-------2/3---------------.-------0-------0-----------------------|
C|------------------------------0--------.----5----------------------------------|

e|--------------------------------------.-----------------------------------|
C|----------0----------2---------4h5p4--.--------4-------5-------4-------5--|
G|--------0----------0---------4--------.------4-------4-------4-------4----|
C|------0----------2---------4----------.----4-------4-------4-------4------|
A|--2/3----------2---------0------------.--0-------0-------0-------0--------|
C|--------------------------------------.-----------------------------------|

e|-----------------------.---------------------------------------------------|
C|---------5---------0---.--------4-------5-------4-------5-------4-------0--|
G|-------5---------7-----.------4-------4-------4-------4-------4-------4----|
C|-----5---------7-------.----4-------4-------4-------4-------4-------4------|
A|-----------------------.--0-------0-------0-------0-------0-------0--------|
C|--/5--------/7---------.---------------------------------------------------|

e|----------------0--.---------0--------0-------0--------0--.------------0---|
C|--------0-----0----.-------5--------5-------5--------5----.----------0-----|
G|------0-----5------.-----7--------7-------7--------7------.--------0-------|
C|----5-----7--------.---0--------7-------0--------7--------.------0---------|
A|--7----------------.--------------------------------------.----3-----------|
C|-------------------.--------------------------------------.--0-------------|
                                                                  
************************************

| /   slide up
| \   slide down
| h   hammer-on
| p   pull-off
| x   Mute note


Tap to rate this tab
# A B C D E F G H I J K L M N O P Q R S T U V W X Y Z