Song name
# A B C D E F G H I J K L M N O P Q R S T U V W X Y Z

Led Zeppelin - Heartbreaker Solo tab

-------------------------------------------------------------------------------
                            HEARTBREAKER SOLOS - Led Zeppelin
-------------------------------------------------------------------------------
Tabbed by: Alejandro Linares

| /   slide up
| \   slide down
| h   hammer-on
| p   pull-off
| ~   vibrato
| b   Bend
| br  Bend release
| ()  Repeat lick

SOLO 1

e|----------------------------------------------------------------------------------|
B|----------------------------------------------------------------------------------|
G|2~5p2p0-----2~5p2p0------2~(5p2p0)the last one bend behind the nut----------------|
D|-------2p0---------2p0------------------------------------------------------------|
A|----------3------------3----------------------------------------------------------|
E|----------------------------------------------------------------------------------|

e|---------------------------------------------------------------------------|
B|---------------------------------------------------------------------------|
G|-5-7b7b---5-7b7brp5--5-7brbrbrbr~-7brp5---7brp5---7brp5--------------------|
D|7--------7-----------7------------------7--------7-------7-----------------|
A|---------------------------------------------------------------------------|
E|---------------------------------------------------------------------------|

e|---------------------------------(8p5-7p5---5-repeat)----------------------|
B|------(55-8p5-----repeat)-55-8p5-(--------7---------)----------------------|
G|--5-7-(--------7b-------)--------------------------------------------------|
D|7--------------------------------------------------------------------------|
A|---------------------------------------------------------------------------|
E|---------------------------------------------------------------------------|

e|8-11p8-10p8----------------------------------------------------------------|
B|------------10-10----------------------------------------------------------|
G|------------------7h9p7-7h9-5-5h7-4-4h5-2-2p0--------0---------------------|
D|----------------------------------------------4p2--------------------------|
A|---------------------------------------------------0-----------------------|
E|---------------------------------------------------------------------------|

e|---------------------------------------------------------------------------|
B|---------------------------------------------------------------------------|
G|4-4brp2--------------------------------------------------------------------|
D|----------2-2-5\4p2-4brp2-4------------------------------------------------|
A|--------0-------------------0-2/4-3-4/5-3-4--------------------------------|
E|--------------------------------------------3b-----------------------------|

e|----------------5------------------------------------------------------------|
B|------------------8p7p5----------------------------------------5h8p5-8p5---5-|
G|----------2-4/6---------8p7p5-5-------------5-7-5h7p5---5-7-7b-----------7---|
D|------2h4-----------------------7-5---5-6-7-----------7----------------------|
A|0-3h4-------------------------------7----------------------------------------|
E|-----------------------------------------------------------------------------|

e|------------5-5------------------------------------------------------------|
B|----------5------8~----9---7---5---4---3~----------------------------------|
G|7p5---5h6------------------------------------------------------------------|
D|----7----------------9---7---6---5---4-------------------------------------|
A|---------------------------------------------------------------------------|
E|---------------------------------------------------------------------------|

SOLO 2
e|------------------------5-------8-9-10p9-10p9-10b-10b-10b-8-9-10-8-9-----|
B|--------------------5-7---8/10---------------------------------------10--|
G|----------2---2-4/6------------------------------------------------------|
D|------2-4---4------------------------------------------------------------|
A|0-3/4--------------------------------------------------------------------|
E|-------------------------------------------------------------------------|

e|-------------------------------12b12b12b12b12b12b~-----------------------|
B|10b10b10b10b10br10-8-----10----------------------------------------------|
G|---------------------/11----11-------------------------------------------|
D|-------------------------------------------------------------------------|
A|-------------------------------------------------------------------------|
E|-------------------------------------------------------------------------|

e|12p10----10----------------------------------------------------------------|
B|------13----13-(10h13p10----10-13-repeat)-(13p10-12p10----10-repeat)-------|
G|---------------(---------12-------------)-(------------11----------)-------|
D|---------------------------------------------------------------------------|
A|---------------------------------------------------------------------------|
E|---------------------------------------------------------------------------|

e|---------------------------------------------------------------------------|
B|15b-15b-------13b----------15b15b15b15b-------13b--------------------------|
G|--------14p12-----14~-12-14-------------14-12------14~---------------------|
D|---------------------------------------------------------------------------|
A|---------------------------------------------------------------------------|
E|---------------------------------------------------------------------------|

e|---5--------------------------------------------------5----------------------|
B|-----8p5---5----------------------------------------5---8/10-----------------|
G|7b-------7---7-5-7p5---5---------------5-7p5---5-7b--------------------------|
D|---------------------7---7-5-7p5---5h7-------7-------------------------------|
A|---------------------------------7-------------------------------------------|
E|-----------------------------------------------------------------------------|

e|-----------------------------------------(14-12---repeat)--(15151515\-repeat)------|
B|10b10b10b10b10b10br10---(/888888 repeat)-(-------13-----)--(17171717\-------)------|
G|----------------------9-(/999999-------)-------------------------------------------|
D|-----------------------------------------------------------------------------------|
A|-----------------------------------------------------------------------------------|
E|-----------------------------------------------------------------------------------|

Tap to rate this tab
 
# A B C D E F G H I J K L M N O P Q R S T U V W X Y Z