Song name
# A B C D E F G H I J K L M N O P Q R S T U V W X Y Z

Led Zeppelin - I Got A Women tab

Help us improve GuitareTab! Take a short survey!
here it is

e----------3--3--3--3--3--3--3--3---x3----------------------------|
b------3h5-3--3--3--3--3--3--3--3---------------------------------|
g--3h4------------------------------------------------------------|
d-----------------------------------------------------------------|
a-----------------------------------------------------------------|
E-----------------------------------------------------------------|

e----------3--3-3-------------------------------------------------|
b------3h5-3--3-3---6-6--6--5-------------------------------------|
g--3h4--------------5-5--5--5-------------------------------------|
d-------------------3-3--3--3-------------------------------------|
a-----------------------------------------------------------------|
E-----------------------------------------------------------------|

e--------------------------------------|
b----5--6--5-----3h5p3-----------------|
g----5--5--5-3h4------4p2p0------------|
d----3--3--3---------------------------|
a--------------------------------------|
E--------------------------------------|repeat
Related for I Got A Women tab