Guitaretab - guitar tabs
Song name
# A B C D E F G H I J K L M N O P Q R S T U V W X Y Z

Led Zeppelin - Thats The Way Live tab

Led Zeppelin 
Thats The Way
Tabbed By Taylor Gilmore, Carlsbad CA

Beautiful song, enjoy

Intro (Live)  G G D G B D
-/7-7      -7/8-8     8/10-10-----------5-
-/7-7      -7/8-8     8/10-10-----------5-
-/7-7      -7/8-8     8/10-10-----------5-
-/7-7      -7/8-8     8/10-10-----------5-
-/7-7      -7/8-8     8/10-10-----------5-
-/7-7      -7/8-8     8/10-10-----------5-
    8 strums   8 strums     8 strums    5 strums

Main Riff
-0-0-0-0-0-0-4-4-4-4-4-0-0-2-0-0-2-0-0
-0-0-0-1-3-3-0-0-0-3-3-0-0-1-0-1-1-0-0
-0-0-0-0-0-0-0-0-0-0-0-0-0-0-0-0-0-0-0
-0-0-0-2-4-4-0-0-0-4-4-0-0-2-0-2-2-0-0
-0-0-0-0-0-0-0-0-0-0-0-0-0-0-0-0-0-0-0
-0-0-0-0-0-0-0-0-0-0-0-0-0-0-0-0-0-0-0
[ Tab from: http://www.guitaretab.com/l/led-zeppelin/47151.html ]
Main Riff Variation 1
-0-0-0-0-0-0-4-4-4-4-4-1/5-5-5-5-5-5--5-5-5
-0-0-0-1-3-3-0-0-0-3-3-1/5-5-5-5-5-6p-5-5-5
-0-0-0-0-0-0-0-0-0-0-0-1/5-5-5-5-5-5--5-5-5
-0-0-0-2-4-4-0-0-0-4-4-1/5-5-5-5-5-7p-5-5-5
-0-0-0-0-0-0-0-0-0-0-0-1/5-5-5-5-5-5--5-5-5
-0-0-0-0-0-0-0-0-0-0-0-1/5-5-5-5-5-5--5-5-5
Main Riff Variation 2
-0-0-0-0-0-0-4-4-4-4-4------------
-0-0-0-1-3-3-0-0-0-3-3------------
-0-0-0-0-0-0-0-0-0-0-0-3-2-0------
-0-0-0-2-4-4-0-0-0-4-4------------
-0-0-0-0-0-0-0-0-0-0-0-------3-2-0
-0-0-0-0-0-0-0-0-0-0-0------------

Chorus 
-3-
-3-
-3-
-3-
-0-
-0-
16 strums

-0-0-0-0-0-0-0-0-0-
-7-7-7-7-7-7-5-6-7-
-0-0-0-0-0-0-0-0-0-
-7-7-7-7-7-7-5-6-7-
-7-7-7-7-7-7-5-6-7-
-0-0-0-0-0-0-0-0-0-

-3-3-3-3-3-3-3--3-3-3-3-3-0-0-0
-1-1-1-1-1-1-1--1-1-1-1-1-1-1-1
-0-0-0-0-0-0-0--0-0-0-0-0-0-0-0
-3-3-3-3-3-3-3--2-2-2-2-2-2-2-2
-0-0-0-0-0-0-0--0-0-0-0-0-0-0-0
-0-0-0-0-0-0-0--0-0-0-0-0-0-0-0

Instrumental Ending
A.
-0-0-0-0-0-0-0-0-0-0-0-0-0-0-0-0-0-0-0
-0-0-0-1-1-1-3-3-3-5-5-5-7-7-7-7-7-7-7
-0-0-0-0-0-0-0-0-0-0-0-0-0-0-0-0-0-0-0
-0-0-0-2-2-2-4-4-4-5-5-5-7-7-7-7-7-7-7    1x
-0-0-0-0-0-0-0-0-0-0-0-0-7-7-7-7-7-7-7
-0-0-0-0-0-0-0-0-0-0-0-0-0-0-0-0-0-0-0
B. 
0--0--0-0-0-0             -0-
8-10-12-7-8-8             -7-  
0--0--0-0-0-0             -0-
9-10-12-7-9-9   3x then   -7-        8x
0--0--0-7-0-0             -7-
0--0--0-0-0-0             -0-
Related for Thats The Way Live tab
Thats The Way Live chords by Led Zeppelin