Song name
# A B C D E F G H I J K L M N O P Q R S T U V W X Y Z

Led Zeppelin - Freedon Rings tab

This is a good Song

E--------------------------------------------------------------
B-3-----3---3-----3---3-----3---3-----3---3-----3---3-----3---3
G----0----0----0----0----0----0----0----0----1----1----1----1--
D--------------------------------------------------------------
A-2----2----2----2----3----3----3----3----0----0----0----0----0
E--------------------------------------------------------------

E--------------------------------------------------------------
B-3-----3---3-----3---3-----3---3-----3---3-----3---3-----3---3
G----1----1----1----0----0----0----0----0----0----0----0----0--
D--------------------------------------------------------------
A-0----0----0----0----3----3----3----3----2----2----2----2----2
E--------------------------------------------------------------

E--------------------------------------------------------------
B-1-----1---1-----1---1-----1---1-----1---1-----1---1-----1---1
G----0----0----0----0----0----0----0----0----2----2----2----2--
D--------------------------------------------------------------
A-2----2----2----2----3----3----3----3----0----0----0----0----0
E--------------------------------------------------------------

E--------------------------------------------------------------
B-1-----1---1-----1---1-----1---1-----1---1-----1---1-----1---1
G----2----2----2----2----0----0----0----0----0----0----0----0--
D--------------------------------------------------------------
A-0----0----0----0----3----3----3----3----2----2----2----2----2
E--------------------------------------------------------------

Then Keep Repeating.
Tap to rate this tab
 
# A B C D E F G H I J K L M N O P Q R S T U V W X Y Z