Song name
# A B C D E F G H I J K L M N O P Q R S T U V W X Y Z

Led Zeppelin - Lemon Song tab

-------------------------------------------------------------------------------
			     SONG NAME - Band Name
-------------------------------------------------------------------------------
Tabbed by:
Email:

Tuning:hey guys im not listenin to the song right now so i just remember how the intro goes so here it is

e|----------------------------------------------------------------------------|
B|----------------------8-----------------------------------------------------|
G|----------------------7-----------------------------------------------------|
D|----------------------7-----------------------------------------------------|
A|----------------------7-----------------------------------------------------|
E|--0-0--4-4--5-5--7-0--------------------------------------------------------|
Tap to rate this tab
# A B C D E F G H I J K L M N O P Q R S T U V W X Y Z