Song name
# A B C D E F G H I J K L M N O P Q R S T U V W X Y Z

Leddra Chapman - A Little Easier tab

-------------------------------------------------------------------------------
                             A LITTLE EASIER - Leddra Chapman
-------------------------------------------------------------------------------
Tabbed by: D.Quinn
E-mail: debbie@fearghasquinn.com

Tuning: Standard. Capo on 4th fret.

intro and verse
e|-0-----0-----0-----0---------0--|
B|-0-----0-----0-----0---------0--|
G|-0-----2-----2-----2---------2--|
D|-0-0h2-2-----2-----2---------2--|
A|-0-----0-----0-----0---------0--|
E|-0-----0-0h3-3-0h2-2-0h1-1p0-0--|

pre-chorus and chorus
e|-0-----0----1-----3------------------------------------------------------------|
B|-1-----0----1-----1------------------------------------------------------------|
G|-2-----0----2-----2------------------------------------------------------------|
D|-2-----2----3-----3------------------------------------------------------------|
A|-0-----2----x-----x------------------------------------------------------------|
E|-0-----0----x-----x------------------------------------------------------------|

************************************

| /   slide up
| \   slide down
| h   hammer-on
| p   pull-off
| ~   vibrato
| +   harmonic
| x   Mute note
| b   Bend
| pb  Pre-bend
| br  Bend release
| pbr Pre-bend release
| brb Bend release bend

************************************
Tap to rate this tab
 
# A B C D E F G H I J K L M N O P Q R S T U V W X Y Z