Song name
# A B C D E F G H I J K L M N O P Q R S T U V W X Y Z

Lee Ben - Pop Queen tab

Help us improve GuitareTab! Take a short survey!
                           ben lee
                          pop queen
                     knitting factory live

solo/intro
e--3~~~~~5---7p5----5p3--------3----3---5b6-5b6-5b6-5b6-5b6-5b6-5b6-5b6--|
b----------------8------5--5--3----3--3----------------------------------|
g----------------------------4----4--------------------------------------|
d------------------------------------------------------------------------|
a------------------------------------------------------------------------|
e------------------------------------------------------------------------|

e-888-777-55--888-777-5-3-5b6-3333333333--5b6-3-5b6-3---7---7---7-|
b-----------------------------3333333333--------------3-----------|
g---------------------------------------------------------7---7---|
d-----------------------------------------------------------------|
a-----------------------------------------------------------------|
E-----------------------------------------------------------------|


Chorus 1
  G       F       C
e-----------------------------|
b-----------------------------|
g----------------x5x5-55x5x55-|
d-5x5-55-x3x3-33-x5x5-55x5x55-|
a-5x5-55-x3x3-33-x3x3-33x3x33-|
E-3x3-33-x1x1-11--------------|

Repeat chord progresion but full bar chords struming except for the c it stays a power chord
Related for Pop Queen tab