Song name
# A B C D E F G H I J K L M N O P Q R S T U V W X Y Z

Lee Bo Ram - Chuh Eum Geu Ja Ri Eh tab

Chuh Eum Geu Ja Ri Eh
(Full House OST)
mzik_man@yahoo.com

Chords:

    Asus2  Asus2/F#  Bsus4/G#  E+9  C7sus4   B7sus2   Gdim

e----0-------0---------0--------2---------------2--------0------|
B----0-------0---------0---------------7--------2--------2------|
G----2-------2---------4--------1------4--------2--------3------|
D----2-------2---------4--------2------4--------4---------------|
A----0--------------------------2------4--------2---------------|
E------------2---------4--------0------------------------3------|

Standard Tuning

Intro:
Asus2--Asus2/F#--Bsus4/G#  (2x)

e---------------------------------|
B-----2---4---5--5----------------|
G-------------------4--4--2-------|
D-------------7-----6-----4-------|
A---------------------------------|
E---------------------------------|

Chorus:
         E
Geudae jigeum naegaseum-e deuleowa
      C7sus4--Cm7
Sarangeul malhago issjyo
      Asus2             B7sus2
Kumi anigireul naneun gidohaebwayo
     E
Naemami jakku geudaeran saram
   C7sus4--Cm7
Nohji malrago haneyo
   Asus2/F#      Bsus4/G#
Yokshimeul naeramyeo
  Am7       B7sus2     Asus2--Asus2/F#--Bsus4/G# (2x)
Babo gateun maleul haneyo


Verse 1:
   Asus2                Bsus4/G#
Uyeonhi dagaon geudae sarangi
Asus2/F#   B7sus2        E--E+9--E
Waenji nachseolji anhassjyo
  Asus2                Bsus4/G#
Hajiman yaksokdoen inyeoigie
Asus2/F# B7sus2       E
Sarani doel jul molrassjyo
       A           Am   Bsus4/G#      Gdim?
Jogeum humyeon geudae bonaeya   haltende
Asus2/F#            B7sus2
Geureol jashini eobsjyo

Chorus 2:
Na holro issdeon geujarireul chaja
Ije dolagal ppuninde
Dangyeonhan ilinde wae mami apeujyo
Geudae wonhadeon sarangeul chaja
Ije dolagal ppuninde
Haengbokhan geudaereul
Useumyeo bonaeya haltende

Verse 2:

Nae nuneul bomyeo sarangeul malhajyo
Seuchyeogan sarangijiman
I sungan naneun neomu haengbokhaeyo
Machi kkumeul kun geos cheoreom
Ijeya alasseoyo cheoeumbuteo urin
Saranghaesseossdaneun geol


Outro:
Naege sarangeul jumyeon andoenayo
Geudae jeongmal andoenayo
Ijeneun geudaereul itorok saranghaneunde
Tap to rate this tab
 
# A B C D E F G H I J K L M N O P Q R S T U V W X Y Z