Song name
# A B C D E F G H I J K L M N O P Q R S T U V W X Y Z

Lee Brice - Love Like Crazy tab

capo 3

e-------------------------|
b-------------------------|
g-------------------------|
d-------------------------|
a--2-2-2-2-2--------------|
e--3-3-3-3-3--------------|
verse one
e--------------------------------|
b--------------------------------|  x2
g--------------------------------|
d--------------------------------|
a--2-2-2-2---2-2-2---2-2-2-2-----|
e--3-3-3-3-3-3-3-3-3-3-3-3-3-----|
they called him crazy when they started out
said seventeens to crazy to know what loves about
they've been together fiftyeight years now
thats crazy

this is my favorite song that i can play on guitar
Tap to rate this tab
 
# A B C D E F G H I J K L M N O P Q R S T U V W X Y Z