Song name
# A B C D E F G H I J K L M N O P Q R S T U V W X Y Z

Lee Brice - Woman Like You tab

Woman Like You by Lee Brice
This is my first tab so I hope it's accurate


Standard tuning capo on the 5th fret
6 = high e, 1 = low e
The zeros I put in are just open strings the capo covers the 5


D Chord shape
6|------7-----------------------10----------8------------------|
5|------8-----------8-----------12---------10------------------|
4|-------------7-----------------------------------------------|
3|---0--------------------0-----------0-----------0------------|
2|-------------------------------------------------------------|
1|-------------------------------------------------------------|


B minor shape
6|--------------------------------------------------------------------------|
5|--------------------------8-----------------------------------8-----------|
4|----------------9-------------------9------------------------------9------|
3|----------9--------------------9-------------------9----------------------|
2|---7-----------------7-------------------------7--------------------------|
1|--------------------------------------------------------------------------|


Use your index and middle to play the 8's and ring to hammer the 10th
6|-------------------------------------------------------------------------|
5|---8h10--------------------10------------8----------------------8--------|
4|-------------------0---------------0-----------------0----------------0--|
3|-------------0----------------------------------0------------------------|
2|-------------------------------------------------------------------------|
1|---8-------------------8-----------------8------------------8------------|


Use your index on the 7th on the A string and the middle on the 7th on the high E
6|---7h8--------------------------------8----------------------|
5|-------------------------------------------------------------|
4|----------------------0------------------------0-------------|
3|--------------7----------------------------------------------|
2|-------------------------------------------------------------|
1|---0--------------------------0------------------------------|


Asus2 shape (A chord just open B string)
6|---0h7------------------------------0------------------------|
5|-------------------------------------------------------------|
4|---------------------7---------------------------------------|
3|--------------7----------------------------------------------|
2|---0------------------------0--------------------------------|
1|-------------------------------------------------------------|


You can either keep picking like this or you can strum the chords:
D, Bmin, G, Emin-A


The Verse: chords are  D, A, G, A  x2 
then Emin, D over F# , G, Emin- A
*the D over F# is just a Dchord with the 7th fret pressed down on the low E 


After the 2nd verse the bridge connects at end of the 2nd G to A by hitting the 
6th fret on the A string, then the chords Bmin, A, G, D over F#, Emin, A


You can figure it out with  chords I gave you if you just play along with the song
Tap to rate this tab
# A B C D E F G H I J K L M N O P Q R S T U V W X Y Z