Song name
# A B C D E F G H I J K L M N O P Q R S T U V W X Y Z

Lee Brice - Hard To Love tab

intro

e|----------------------------------------------------------------------|
b|----------------------------------------------------------------------|
g|----------------------------------------------------------------------|
D|------------------------------------7-------7--------6--------6-------|
A|-9------9--------7----------7-----------9------9---------7---------7--|
E|----10------10---------9--------9-------------------------------------|         X6

fill

e|----------------------------------------------------------------|
b|----------------------------------------------------------------|
g|----------2h--4-2----2--------2---------1----------1------------|
D|-0--2s4-------------------4--------4----------2-----------2-----|
A|----------------------------------------------------------------|
E|----------------------------------------------------------------|


CHORDS

D A F#m E through out the whole song

its my 1st time any questions suggestion let me know enjoy :)
Tap to rate this tab
 
# A B C D E F G H I J K L M N O P Q R S T U V W X Y Z