Song name
# A B C D E F G H I J K L M N O P Q R S T U V W X Y Z

Lee Clayton - I Ride Alone tab

-------------------------------------------------------------------------------
			    I Ride Alone - Lee Clayton
-------------------------------------------------------------------------------
Tabbed by: K_B
Email:maxstunner100@hotmail.com
Tuning: Normale
Album: Naked Child & Border Affair

http://en.wikipedia.org/wiki/Lee_Clayton
http://www.amazon.com/Lee-Clayton/dp/B0000011W5

This took me white a while its not to difficult but Lee uses some unique and 
hard bends that arnt to easy to tab out. It should be perfect and it needs
to be played whilst listening to the song to work out the bends and especialy
the tapping/wammy at 4:47.

Any Questions email me. Remember this is probably the greatest song ever!

(Key at the Bottom)

Intro Guitar: Chords

    C#min Bmaj Amaj
e|----x----x----x----x----x--------------------------|
B|----9----7----5----7----9--------------------------|
G|----9----8----6----8----9--------------------------|  Repeat
D|----11---9----7----9----11-------------------------|
A|----11---9----7----9----11-------------------------|
E|----9----7----5----7----9--------------------------|

Intro Solo 0:27

e|---14b(16)-----------------------------------------------------------------|
B|---------------------------------------------------------------------------|
G|------------11-9-11+---11b(13)r11-9-------------------------------8b-------|
D|------------------------------------11----11-9b~-11----11p9--11------------|
A|---------------------------------------------------------------------------|
E|---------------------------------------------------------------------------|

e|---------------------------------------------------------------------------|
B|------------------12-------------------------------------------------------|
G|---8----/11-11----11b-r-9--------------------------------------------------|
D|-----11--------------------11~--------(11)-----------------11~-------------|
A|----------------------------------------------------9--11------------------|
E|---------------------------------7b~---9-----------------------------------|

e|---------------------------------------------------------------------------|
B|---------------------------------------------------------------------------|
G|--------------11---------------------9--11--11/13--13--13h14p13--11--13----|
D|---11\9/11----x-----11--9h11-----11----------------------------------------|
A|--------------x------------------------------------------------------------|
E|--------------x------------------------------------------------------------|
               rake

e|---------------------------------|
B|---------------------------------|
G|---13--13h14p13p11--(11\9)-------| 1:16 'Its another night....'
D|---------------------------11~---|
A|---------------------------------|
E|---------------------------------|

'Vamos'  1:38          'of Paris' 1:46          'things' 1:50
e|-----------------|-------------------------|-------------------------------|
B|-----------------|-------------------------|----9~-------------------------|
G|-----------------|-------------------------|----9b-r9----------------------|
D|-----------------|--------------9--(9h)11--|-----------11p9----------------|
A|-----------------|-----7--9--11------------|-----------------11\9--7-------|
E|--------7b--9~---|-------------------------|---------------------------9---|


 'Midnight Highway'1:56       'Renegade King' 2:01    Bridge Chords (repeat)
e|-------------------------|-------9-----9---------|-------------------------|
B|----9-----9--------------|-------12b---12b-------|-------------------------|
G|----11b---11b------------|-----------------------|-------------------------|
D|-------------------------|-----------------------|--------11-------11------|
A|-------------------------|-----------------------|----0---11---0---11------|
E|-------------------------|-----------------------|----0---9----0---9-------|

 Interlude to chorus 2:16   Chorus '..Ride'      '..Alone'  -(optional Gtr2)
e|---------------------|------------------------------12---11---9------------|
B|---------------------|----------------12--14-------(14)-(12)-(10)---12/14--|
G|---------------------|------------13----------------------------------(13)-|
D|-----------------11--|-----------------------------------------------------|
A|----11--9--7--6--11--|-----------------------------------------------------|
E|-----------------9---|-----------------------------------------------------|


From Here On the Bridge Chords are repeated and the interlude to chorus
with chorus repeats 3 times with the chorus performed twice each time.
The bridge chords which are now acting like a default verse also get a gtr1 
part over below. this is followed by the climatic solo.

Bridge chords 
e|-----------|-------------|--------------|
B|-----------|-------------|--------------|
G|-----------|-------------|--------------|
D|-------11--|--11--9--11--|-----11-------| Repeat.
A|---0---11--|--11--9--11--|--0--11-------|
E|---0---9---|--9---7--9---|--0--9--------|
    Gtr 1        Gtr 2        Gtr 1

Solo 3:48

e|---------------------------------------------------------------------------|
B|-------------12------------------------------------------------------------|
G|-----11b-hold---r11--11--9-------------------------------------------------|
D|----------------------------11----11--9b~------11-9-11-9-11-11\------------|
A|---------------------------------------------------------------------------|
E|---------------------------------------------------------------------------|

e|---------------------------------------------------------|
B|---------------------------------------12--14-14--14-14--|
G|-------9-11--11br-9-----9--11b(13)-----------------------|
D|---11----------------11----------------------------------|
A|---------------------------------------------------------|
E|---------------------------------------------------------|

e|----------9h11-11--11h12p11p9-----------------------9----------------------|
B|------------------------------12/14----12--9------9---9--12-9--------------|
G|----------------------------------------------11b--------------11b13r11--9-|
D|---------------------------------------------------------------------------|
A|---------------------------------------------------------------------------|
E|---------------------------------------------------------------------------|

e|---------------------------------------------------------------------------|
B|---------------------------{-9--------9------} repeat ---------------------|
G|-------11------9~-------9--{-11b(13)--11b(13)-}  x9   -----11r-9-----------|
D|---11------11--------11-------------------------------------------11-------|
A|---------------------------------------------------------------------------|
E|---------------------------------------------------------------------------|

e|----------------------------------------------14b--14br--12----------------|
B|------------12-12--12b14--12-12-----12--12-------------------14-14---------|
G|---9--11/13---------------------13--13--13---------------------------------|
D|---------------------------------------------------------------------------|
A|---------------------------------------------------------------------------|
E|---------------------------------------------------------------------------|

e|--------12--14-14-14-14-14-14h16p14p12-----12--14-14--12-12--14-14-12----12|
B|-----14---------------------------------14----------------------------14---|
G|---------------------------------------------------------------------------|
D|---------------------------------------------------------------------------|
A|---------------------------------------------------------------------------|
E|---------------------------------------------------------------------------|

e|---------------------------------------------------------------------------|
B|--14-14-14--14p12-12-12h14p12----12-----{-9-----9-----9----} Repeat--------|
G|------------------------------13----13--{--11b---11b----11b}       --------|
D|---------------------------------------------------------------------------|
A|---------------------------------------------------------------------------|
E|---------------------------------------------------------------------------|

                   [Left hand tapping]
e|---------------------------------------------------------------------------|
B|-----9h12p9----9--{9h12p9h12p9}   repeat multiple times and raise tone with
G|--11--------11-------------------------------   wammy or press behind nut
D|---------------------------------------------      ocasionally (4:47)
A|---------------------------------------------------------------------------|
E|---------------------------------------------------------------------------|

e|---------------------------12-12-12-12-11-11-11-11h12p11p9-----------------|
B|----9-9-9-----------9---------------------------------------12/14~---------|
G|-----------11b(13)--11b----------------------------------------------------|
D|---------------------------------------------------------------------------|
A|---------------------------------------------------------------------------|
E|---------------------------------------------------------------------------|

e|------12--14--16--19--21-21-|
B|---14-----------------------|  At the end Gtr 2 Goes up to the Db while Gtr1
G|----------------------------|  reterns back down to the pentatonic shape 
D|----------------------------|  seen in the solo of Db/c#.
A|----------------------------|
E|----------------------------|

| /  slide up
| \  slide down
| h  hammer-on
| p  pull-off
| ~  vibrato
| +  harmonic
| x  Mute note
|(9) Grace Note
| b  Bend
| r  Release Bend
===============================================================================
Tap to rate this tab
# A B C D E F G H I J K L M N O P Q R S T U V W X Y Z