Song name
# A B C D E F G H I J K L M N O P Q R S T U V W X Y Z

Lee Dewyze - Blackbirds Song tab

-------------------------------------------------------------------------------
                                        BLACKBIRD'S SONG - Lee DeWyze
-------------------------------------------------------------------------------
Tabbed by: tele.kom
E-mail: telee.kom@gmail.com

Tuning: Drop D

Intro/Verse/Chorus
e|------------------------------------------------------------------------------------------|
B|------3--------3--------3--------3---3/5----5--------5-5/3---3------3--------3-------3----|
G|--------2--------2--------2--------2-2/4------4--------4/2------------2-------------------|
D|----0--------0--------0--------0-----0----0--------0---0---0------0--------0-------0------|
A|-------------------------------------------------------------------------------0h2--------|
D|-0--------0--------3--------3--------3/5--------5------5/3-----0--------0-----------------|


Chords strummed near the end of the song
e|----------------------------|
B|--3--------3--------5-------|
G|--2--------2--------4-------|
D|--x--------x--------x-------|
A|--0--------3--------5-------|
D|--0--------3--------5-------|
Tap to rate this tab
# A B C D E F G H I J K L M N O P Q R S T U V W X Y Z