Song name
# A B C D E F G H I J K L M N O P Q R S T U V W X Y Z

Lee Dewyze - Blackbirds Song tab

-------------------------------------------------------------------------------
                             Blackbirds Song - Lee Dewyze
-------------------------------------------------------------------------------
Tabbed by: anonymous
E-mail: anonymous

Tuning: Drop D

Main Riff:

E|-----------------------------------------------------------------------------------------|
B|--------3--------------3--------------3--------------3--------------3--------------3-----|
G|--------2--2-----------2--2-----------2--2-----------2--2-----------2--2-----------2--2--|
D|-----------------------------------------------------------------------------------------|
A|-----------------------------------------------------------------------------------------|
D|--0--0--------0--0--0--------0--3--3--------3--3--3--------3--5--5--------5--5--5--------|


E|--------------------------------|
B|-----------3--------------3-----|
G|-----------2--2-----------2--2--|
D|--------------------------------|
A|--------------------------------|
D|--3--0--0--------0--0--0--------|


Fill In:

E|----------|
B|----------|
G|----------|
D|-------0--|
A|--0h3-----|
D|----------|
Tap to rate this tab
# A B C D E F G H I J K L M N O P Q R S T U V W X Y Z