Song name
# A B C D E F G H I J K L M N O P Q R S T U V W X Y Z

Lee Griffths - Hippy Dippy tab

Intro/Verse

e|--3--2-----3--2-----3--2-------3--2-----8--7-----8--7-----3--2-----3--2---|
B|---3--3-2---3--3-2---3--3-2-----3--3-2---8--8-8---8--8-8---3--3-3---3--3-3|
G|----2--2-----2--2-----2--2-------2--2-----7--7-----7--7-----2--2-----2--2-|
D|-0--------0--------0----------0--------0--------0--------0--------0-------|
A|--------------------------------------------------------------------------|
E|--------------------------------------------------------------------------|

|--6--5-----8--7-----3--2-----3--2----|
|---6--6-6---8--8-8---3--3-3---3--3-3-|
|----5--5-----7--7-----2--2-----2--2--|
|-0--------0--------0------- 0--------|
|-------------------------------------|
|-------------------------------------|

Chorus

Bar chords, for the pattern listen to the song.

D, D, D, D, G, G, D, D, F, G, D, D.

So, the same chord pattern as the verse.
Figure out the lyric yourself.
Great song, wish I'd written to be honest.

For more on Lee Griffiths, he has a website; http://lee-griffiths.com/ 
Tap to rate this tab
 
# A B C D E F G H I J K L M N O P Q R S T U V W X Y Z