Song name
# A B C D E F G H I J K L M N O P Q R S T U V W X Y Z

Lee Harding - Anything For You tab

Anything For You - Lee Harding
Album - What's Wrong With This Picture? (2005)

My favourite Lee Harding song. The rhythms are very simple, just follow along with the 
The solo is also fantastic. This is my first tab so don't worry if it looks confusing!

Order
- Intro
- Verse 1
- Pre Chorus
- Chorus
- Bridge (Intro Riff)
- Verse 2
- Pre Chorus
- Chorus
- Pre Solo
- Solo
- Pre Chorus
- Chorus (played twice)
- Outro

INTRO
e--------------------|
b--------------------|
g--------------------|
d--------------------|this is played four times
a------5-0-5----0-1-0|
d--0-0---------------|

VERSE 1
e----------------|------------|
b----------------|------------|
g----------------|---------2-2|these two bars are also played four times
d--7-7-----------|--5-5----2-2|
a--5-5----5-5----|--3-3-------|
d---------5-5----|------------|

PRE CHORUS
e------------------|-----------------|-----------------|-----------------|
b------------------|-----------------|-----------------|-----------------|
g------------------|-----------------|-----------------|-----------------|
d------------------|-----------------|-----------------|-5-5-5-5--5-5-5-5|
a--5-5-5-5--7-7-7-7|-5-5-5-5--7-7-7-7|-5-5-5-5--7-7-7-7|-3-3-3-3--3-3-3-3|
d--5-5-5-5--7-7-7-7|-5-5-5-5--7-7-7-7|-5-5-5-5--7-7-7-7|-----------------|

CHORUS
e-----------------|-----------------|-----------------|-----------------|
b-----------------|-----------------|-----------------|-----------------|
g-----------------|----------2-2-2-2|-----------------|----------2-2-2-2|
d-7-7-7-7---------|-5-5-5-5--2-2-2-2|-7-7-7-7---------|-5-5-5-5--2-2-2-2|
a-5-5-5-5--5-5-5-5|-3-3-3-3---------|-5-5-5-5--5-5-5-5|-3-3-3-3---------|
d----------5-5-5-5|-----------------|----------5-5-5-5|-----------------|

e-----------------|-----------------|-----------------|-----------------|
b-----------------|-----------------|-----------------|-----------------|
g-----------------|----------2-2-2-2|-----------------|-----------------|
d-7-7-7-7---------|-5-5-5-5--2-2-2-2|-----------------|-----------------|
a-5-5-5-5--5-5-5-5|-3-3-3-3---------|-5-5-5-5--5-5-5-5|-2-2-2-2--2-2-2-2|
d----------5-5-5-5|-----------------|-5-5-5-5--5-5-5-5|-2-2-2-2--2-2-2-2|

BRIDGE - Is the riff from the intro played four times

VERSE 2
e-------|
b-------|
g-------|
d-7-7---|
a-5-5---|this chord is played in the first 4 bars and are held for 4 beats
d-------|per bar

then:
e-----------|-----------|-----------|-----------|
b-----------|-----------|-----------|-----------|
g-----------|--------2-2|-----------|--------2-2|
d-7-7-------|-5-5----2-2|-7-7-------|-5-5----2-2|
a-5-5----5-5|-3-3-------|-5-5----5-5|-3-3-------|
d--------5-5|-----------|--------5-5|-----------|

PRE SOLO
e-----------|-----------|-----------|-----------|
b-----------|-----------|-----------|-----------|
g-----------|--------2-2|-----------|--------2-2|
d-7-7-------|-5-5----2-2|-7-7-------|-5-5----2-2|
a-5-5----5-5|-3-3-------|-5-5----5-5|-3-3-------|
d--------5-5|-----------|--------5-5|-----------|

SOLO - FUN PART (b = bend note   h = hammer on)
e----------------------|-------------------------|
b----------------------|-------------------------|
g----7-7----7-7----7-9b|----7-------7-7------7---|
d-7h9-----9------9-----|-7h9---9-7------9-7----9b|
a----------------------|-------------------------|
d----------------------|-------------------------|

e----------------------|------------|------10-10--10-10----10-12b|
b----------------------|-8-7-8-9-10b|-10h12-----12-------12------|
g----7-7----7-7----7-9b|------------|----------------------------|
d-7h9-----9------9-----|------------|----------------------------|
a----------------------|------------|----------------------------|
e----------------------|------------|----------------------------|

e-------10-------10-10--------10----|15-14-15-16-17-16-17-18-19-18-19-20-21|
b-10h12---12-10--------12-10-----12b|--------------------------------------|
g-----------------------------------|--------------------------------------|
d-----------------------------------|--------------------------------------|
a-----------------------------------|--------------------------------------|
e-----------------------------------|--------------------------------------|

OUTRO - Basically the chorus with a solo in the background (have not
        figured this solo out)
Tap to rate this tab
# A B C D E F G H I J K L M N O P Q R S T U V W X Y Z