Song name
# A B C D E F G H I J K L M N O P Q R S T U V W X Y Z

Lee Harding - Wasabi tab

Tabbed By Dale Townsend
Album: Whats wrong with this picture (First album to be released this week)
Song: Wasabi
Artist: Lee Harding
This song sounds hard but its not that hard to play, just need to know the changes, its 
crapy kind of song but addictive and fun to play so i tabbed it out.

First to tab it out


Intro (guitar 1 only)
e-----------------------------------|
b-8-9-8-9-8-9-8-9-8Hold-------------|
g-----------------------------------|
d-----------------------------------|
a-----------------------------------|
e-----------------------------------|

Intro to verse (guitar 1) need to learn timming and slide last chord
(palm Muted)
e-------------------------------------|
b-------------------------------------|
g-------------------------------------|
d-------------------------------------|
a-10-10-10-|10-10-10/11---------------|  x2
e-8--8--8--|8--8-8---/9|--------------|  x2

Verse (pm)x2
e--------------------------------|----------------------------------|
b--------------------------------|----------------------------------|
g--------------------------------|----------------------------------|
d-------------------------22-----|----------------------------------|
a-10-10--10|5-5-5|7-7-7|--22--3-3|-10-10-10|8-8-8-|3-3-3-3|-6-6-8-8-|
e-8---8---8|3-3-3|5-5-5|--0-0-1-1|-8--8---8|6-6-6-|1-1-1-1|-4-4-6-6-|

Chorus (not really this rhythym, work it out ur selves but right cords
e-------------------------------------------------------------------|
b-------------------------------------------------------------------|
g-------------------------------------------------------------------|
d-----------------------------------------8-8-8-8-8-----------------|
a-10-10-10-10-10-10-10-10|6-6-6-6-6-6-6-6|6-6-6-6-6-8-8-8-8-8-8-8-8-|
e--8--8--8--8--8--8--8--8|4-4-4-4-4-4-4-4|----------6-6-6-6-6-6-6-6-|
                  WWWAAAASABI        YEah So damn hot that My heads gona blow


Verse

Then

Solo
e----------------------------------|
b---------5--------5--------5------|
g-5-5-5-5--7-5-5-5--7-5-5-5--7-4-0-|
d----------------------------------|
a----------------------------------|
e----------------------------------|
Tap to rate this tab
# A B C D E F G H I J K L M N O P Q R S T U V W X Y Z