Song name
# A B C D E F G H I J K L M N O P Q R S T U V W X Y Z

Lee Kernaghan - Baptise The Ute tab

-----------------------------------------------------------------------------
		Baptise the ute - Lee kernaghan
-----------------------------------------------------------------------------
Tabbed by: jk41
Email:

Tuning: standard
Starightforward song, with only 2 riffs with slight variations

Main riff- which is the verse riff, with variation becomes chorus
e|-----------------------------------|
B|-----------------------------------|
G|-2---2-2---------2---2-2-----------|Throw in the F# and G ascending
D|-2---2-2----2----2---2-2----2------| and descending to break the riff
A|-0-----0----0----0-----0----0------| up
E|---------3b--------------3b--------|

alternate verse/prechorus
e|-----2----2-2--------2----2-2--------2----2-2------------------|
B|-----2----2-2--------2----2-2--------2----2-2------------------|
G|-3---3-3--3-3----3---3-3--3-3----3---3-3--3-3------------------|
D|-4---4-4--4------4---4-4--4------4---4-4--4-----4---5-5--6-6---|
A|-4-----4--4------4-----4--4------4-----4--4-----4-x-5-5--6-6---|
E|-2-----2--2------2-----2--2------2-----2--2-----2-x-3-3--4-4---|
Goes back to main riff then changes to chorus like this
e|---------------------------------------------------------------|
B|---------------------------------------------------------------|
G|-2---2-2---------2---2-2---------2---2-2-----------------------|
D|-2---2-2----2----2---2-2----2----2---2-2----2---2-x-4-4--5-5---|
A|-0-----0----0----0-----0----0----0-----0----0---0-x-4-4--5-5---|
E|---------3b--------------3b--------------3b---------2-2--3-3---|
 I only happen to pic this up cos it came on and i had my guitar on me.
Not a huge country fan


************************************

| /   slide up
| \   slide down
| h   hammer-on
| p   pull-off
| ~   vibrato
| +   harmonic
| x   Mute note
| b   Bend
| pb  Pre-bend
| br  Bend release
| pbr Pre-bend release
| brb Bend release bend

************************************
Tap to rate this tab
# A B C D E F G H I J K L M N O P Q R S T U V W X Y Z