Song name
# A B C D E F G H I J K L M N O P Q R S T U V W X Y Z

Lee Ritenour - Rio Funk Part 6 tab

Help us improve GuitareTab! Take a short survey!
-------------------------------------------------------------------------------
			     RIO FUNK - distortion part 2
-------------------------------------------------------------------------------
Tabbed by: Billy Sumagui
Email:
Tuning:
	     [118]	
e|-10----12-----13-----15-----16----18---20------22--|
B|---11----13-----15-----15-----17----18---20--------|
G|-----12----14-----15-----15-----17---------19------|
D|---------------------------------------------------|
A|---------------------------------------------------|
E|---------------------------------------------------|
   (120)	
e|-------------------------------------------13----------13-18-|
B|---------------------------11-13-----11-13-15-----13-15---18-|
G|-----------10-12------10-12-------10-12---------15-----------|
D|------10-12--------10-12-------------------------------------|
A|-10-12-------------------------------------------------------|
E|-------------------------------------------------------------|
    (121)
e|--------13----13--------10------------------|----------------------|
B|-----18-15-13-11----------11-13-------------|--13-11-13-11------6x-|
G|-------------------------------12-10-12-----|-------------10-12----|
D|--------------------------------------------|----------------------|
A|--------------------------------------------|----------------------|
E|--------------------------------------------|----------------------|

e|--8-8-8-8-9-10---13bend----------------------------------------------------|
B|--6-6-6-6-7--8-------------------------------------------------------------|
G|---------------------------------------------------------------------------|
D|---------------------------------------------------------------------------|
A|---------------------------------------------------------------------------|
E|---------------------------------------------------------------------------|

Ernie Watts follows on keyboards at measure 126

then rythm section on measure 188
===============================================================================
Related for Rio Funk Part 6 tab