Song name
# A B C D E F G H I J K L M N O P Q R S T U V W X Y Z

Lee Ritenour - Rio Funk Part 5 tab

-------------------------------------------------------------------------------
			     RIO FUNK - LEAD GUITAR DISTORTION PART
-------------------------------------------------------------------------------
Tabbed by: Billy Sumagui
Email:
Tuning:
	(104)
e|-------------------|----------------------6---|
B|-------------------|---------------------6-6--|
G|-----3---3-5-3-----|-5-3----------------------|
D|--3-5-3--------3-5-|-----3-5---3--------------|
A|-------------------|----------5----3----------|
E|-------------------|--------------1-----------|
     [1]      [2]       [3]
e|---6----8----6----8----6----8----11------12-----13-----|
B|--6----8----6----8----6----8----8------12-----12-------|
G|-5----7----5----7----5----7----7-----12-----12-----12--|
D|-------------------------------------------------------|
A|-------------------------------------------------------|
E|-------------------------------------------------------|
	(110)
e|--15-15----15-15-15----15-15-15----15-15-15----15--|
B|---------------------------------------------------|
G|-----12-12-12----12-12-12----12-12-12----12-12-12--|
D|---------------------------------------------------|
A|---------------------------------------------------|
E|---------------------------------------------------|

e|--15-15-15-15--17-17----18-18-----18-18-18----18--|
B|--------------------------------------------------|
G|-----12----12-----14-14----15-15--15----15-15-15--|
D|--------------------------------------------------|
A|--------------------------------------------------|
E|--------------------------------------------------|

e|-20-20----20-20-20----20-20-20----20-20-20----20-20-|
B|----------------------------------------------------|
G|----17-17-17----17-17-17----17-17-17----17-17-17----|
D|----------------------------------------------------|
A|----------------------------------------------------|
E|----------------------------------------------------|
	(113)
e|------------------------6-5----|-10-12-10--10---------------|
B|-----------------------8---6-8-|---------13--13-11-13-11-10-|
G|-------------7-8-7-10-7--------|----------------------------|
D|--7----7-8-10------------------|----------------------------|
A|-9-9-10------------------------|----------------------------|
E|-------------------------------|----------------------------|
	(116)
e|----------------------------|---------------|-
B|-11-10----------------------|---------------|-
G|------12-10-----------------|----------9----|-12-10-12-13-12-|  G
D|-----------12-10------------|-12-10-12---12-|
A|----------------13-10-12-13-|---------------|
E|----------------------------|---------------|
===============================================================================
Tap to rate this tab
# A B C D E F G H I J K L M N O P Q R S T U V W X Y Z