Guitaretab - guitar tabs
Song name
# A B C D E F G H I J K L M N O P Q R S T U V W X Y Z

Lee Ritenour - Rio Funk Part 4 tab

-------------------------------------------------------------------------------
			     RIO FUNK - 4TH PART
-------------------------------------------------------------------------------
Tabbed by: billy sumagui
Email:
Tuning:
(87)
e|--11-11-------------------------------------|------------------------------|
B|--10-10-----13-11--------11------------11---|---10-----10------------------|
G|---8--8------------12-14-----12-14-10----12-|-10----9----------------------|
D|--------------------------------------------|-12---------12----------------|
A|--------------------------------------------|------------------------------|
E|--------------------------------------------|------------------------------|
	(90)
e|---------------------|-----------------------------12-13-12----------------|
B|-3-1-3-1---repeat 5x-|---------------------------15--------13-15-----------|
G|---------3--this-----|-0-0-2-3-----------12-14-15---------------15-14------|
D|---------5--section--|--3--------12-14-15--------------------------15-12---|
A|---------------------|---------15----------------------------------------13|
E|---------------------|---------------------------------------------------15|
     (93)
e|--------|---------5---6---8----10---12----13-----15-----15-15-15-15-15-----|
B|--------|----8-------------------------------------------------------------|
G|-----10-|-5h7--5h7-5h7-5h7--5/7--7/9--9/10--10/12----12-12-12-12-12-12-----|
D|-----10-|------------------------------------------------------------------|
A|-----12-|------------------------------------------------------------------|
E|-13-----|------------------------------------------------------------------|
[ Tab from: http://www.guitaretab.com/l/lee-ritenour/188415.html ]
e|--------------------------------------|------------------5h6p5---5-5-------|
B|---------------13---------------------|-------------------------------6----|
G|-------------12--14--12---------------|----6---8---10-----------------7----|
D|--------12-15------15--12-15--12------|-7h8-7h8-7/8------------------------|
A|---13-15--------------------15--12-13-|------------------------------------|
E|-15-----------------------------------|------------------------------------|
	(98)
e|-10p-9p-8----------8----------|-----------8--------------------------------|
B|---------11-10-8--8-8-11-10---|-11---10-11---11-10---11-8------------------|
G|----------------10---------10-|------------------------------7-10----------|
D|------------------------------|--------------------------------------------|
A|------------------------------|--------------------------------------------|
E|------------------------------|--------------------------------------------|
	(100)
e|-------8----10--13-15--17-18-17-15-17-13-15---|
B|-7-8-10-11----11---------------------------15-|
G|----------------------------------------------|
D|----------------------------------------------|
A|----------------------------------------------|
E|----------------------------------------------|

e|--------------------|------------------------------------------------------|
B|--------------------|------------------------------------------------------|
G|-10-12-10-----------|------------------------------------------------------|
D|---------12-10------|-------------------------------3----------------------|
A|--------------12-10-|-10-13-----13-----13-----------5----------------------|
E|--------------------|------13-----12-----10----5-6-------------------------|

===============================================================================
Related for Rio Funk Part 4 tab