Song name
# A B C D E F G H I J K L M N O P Q R S T U V W X Y Z

Lee Ritenour - Rio Funk Part 3 tab

-------------------------------------------------------------------------------
			     RIO FUNK 3RD PART- Lee Ritenour
-------------------------------------------------------------------------------
Tabbed by:billy Sumagui
Email:batas_ko@yahoo.com
Tuning: standard, clean guitar
62
e|-7h8p7------13-13------13-13-|-10----10------------------------------------|
B|-----------------10/11-------|----13----10---------------------------------|
G|-----------------------------|-------------10-------12---------------------|
D|-----------------------------|----------------10-12------------------------|
A|-----------------------------|---------------------------------------------|
E|-----------------------------|---------------------------------------------|
68
e|---------------------|----------------|------------------------------------|
B|-11----8-------------|----------------|------------------------------------|
G|----10---7-10-12-----|------7---------|---------9-7----9--9-7---10bend-----|
D|-----------------10--|-8-10---10-8----|--------10-8---10-10-8--------------|
A|---------------------|-------------10-|-8-9-10-----------------------------|
E|---------------------|----------------|------------------------------------|
74
e|-3-----3-----------------5-6p5----|--5h6p5--5-5----------------------------|
B|---3-6---3---3-------3-6----------|----------------------------------------|
G|-----------5---3---3--------------|----------------------------------------|
D|-----------------5----------------|----------------------------------------|
A|----------------------------------|----------------------------------------|
E|----------------------------------|----------------------------------------|
						(79)
e|----6-3---6-------6---|----------------------------------------------------|
B|-3------3---6--6----5-|-5-6-8-6-8-5-8------------------------8---8---------|
G|-3------3------7------|-----------------7------------------7--10-----------|
D|----------------------|--------------------8---10p8----8-------------------|
A|----------------------|--------------------8--------10---------------------|
E|----------------------|----------------------------------------------------|
ROLL
e|-------------------3--5-6-5---|-5h65-5-5-|-10-8-6-5-6--5-------------------|
B|-----------------3----------6-|----------|-----------8--6-8-5-6---5--------|
G|-3-2-0-2---0-2-3--------------|----------|----------------------7--5----7--|
D|---------4--------------------|----------|------------------------------8--|
A|------------------------------|----------|---------------------------------|
E|------------------------------|----------|---------------------------------|
	(83)
e|---------------|--------------------|-------------|------------------------|
B|-------------6-|-10-10----10-10--11-|-11-11----11-|-10-10----10-10----11---|
G|-7-5---5-7---7-|--7--7-----7--7---7-|--7--7-----7-|--7--7-----7--7-----7---|
D|-----8-----8---|--7--7-----7--7---8-|--7--7-----7-|--7--7-----7--7-----8---|
A|---------------|--------------------|-------------|------------------------|
E|---------------|--------------------|-------------|------------------------|

e|---------------------------------------------------------------------------|
B|---------------------------------------------------------------------------|
G|---------------------------------------------------------------------------|
D|---------------------------------------------------------------------------|
A|---------------------------------------------------------------------------|
E|---------------------------------------------------------------------------|
===============================================================================
Tap to rate this tab
# A B C D E F G H I J K L M N O P Q R S T U V W X Y Z