Song name
# A B C D E F G H I J K L M N O P Q R S T U V W X Y Z

Lee Ryan - In The Morning tab

I use the stuff below to play an acoustic version. I just wrote down the parts that I 
so you can make your own version.

0:32
SYNTH BASS
-----------------------------------------------------------------|
-----------------------------------------------------------------|
-----------------------------------------------------------------|
-----------------------------------------------------------------|
---------8-8-8-8---------8-8-8-8---------5-5-5-5---------5-5-5-5-|
-6-6-6-6---------6-6-6-6---------3-3-3-3---------3-3-3-3---------|

1:04
BASS CUTS OUT EXCEPT FOR THE FAST FOUR NOTE THING
GUITAR 1:
--------------------------------------------------------------|
--------------------------------------------------------------|
--------------------------------------------------------------|
---8-8-8-8-----7-7-7-7-7-7---x2----5-5-5-5-3-3----------------|x2
-----------8-8---------------------------------5-5-5-5-5-5----|
-6-------------------------------3----------------------------|

1:20
GUITAR 2 COMES IN:
---3-----3-------5-----5--------------3-----3-------5-----5------------|
-----3-----3---3---3-----3-----3--------3-----3---3---3-----3-----3----|
-------3-----3-------3-----3-3---x2-------3-----3-------3-----3-3------|x2
-----------------------------------------------------------------------|
-----------------------------------------------------------------------|
-6----------------------------------3----------------------------------|

1:35
GUITAR 1 CUTS OUT
SYNTH BASS COMES BACK IN

1:52
GUITARS AND BASS CUT OUT
KEYBOARD PLAYS SOMETHING LIKE
-----------------|
-----------------|
-7-7-7-7-7-7-7-7-|
-5-5-5-5-5-5-5-5-|
-----------------|
-----------------|

2:08
BASS COMES BACK IN
KEYBOARD PART:
------10----|
---------10-|
---7--------|
-8----------|
------------|
------------|

2:25
BASS CUTS OUT, GUITAR PART COMES IN

2:40
GUITAR CUTS OUT, GUITAR 2S ORIGINAL PART COMES IN, NEW GUITAR PART COMES:
-------|
-------|
-777-55
-------|
-------|
-------|

2:56
NEW GUITAR PART
---6----------------|
-----6-8------------|
---------7----------|
-8------------------|
--------------------|
--------------------|
NEW BASS PART
----------------------------|
----------------------------|
----------------------------|
----------------------------|  x2
-5----5------3-5------------|
--------3-------------------|

3:12
BASS PART PLUS
----------------------------|
----------------------------|
----------------------------|
----------------------------|  x2
-5----5------3-5------------|
--------3---------3-3-6-6---|
Tap to rate this tab
# A B C D E F G H I J K L M N O P Q R S T U V W X Y Z