Song name
# A B C D E F G H I J K L M N O P Q R S T U V W X Y Z

Lee Seon Heui - Fox Rain tab

This is only an intro. I have a full tabs of this song just send me request if you want 
and i will send it to you! :)) This is my Email add: code_geass_bhenx@yahoo.com Thanks!! :))


Intro:


e-----0-0-0--------------------------------------|
B------------3--1--3--0--0-----------1--1--3--1--|
G--2------------------------2--0--2--------------|
D--3---------------2--------------3--------------|
A---------------------------------------------3--|
E------------------------------------------------|


e--------0--0--0--0-------------------0--------0------------|
B--1--3-------------3--1--0--1--3--1-----3--1-----3--1--1---|
G----------------------------------------3------------------|
D-----------------------------------------------------------|
A--------0----------------------------------------------3---|
E-------------------------3--------3--------------3---------|


e---------0--0---------3---------------------------0--------|
B-------------------------3--3--1--0------1--1--3-----------|
G---2--2--------3--1-------------------2--------------------|
D------3---------------2---------------3--------------------|
A--------------------------------------------------3--------|
E-----------------------------------------------------------|


e--------0--0--0--------------------1--------1--------------|
B--1--3-----------3--1--0--1--3--1-----3--1-----3--1--1-----|
G--------------------------------------3--------------------|
D-----------------------------------------------------------|
A--------0--------------------------------------------3-----|
E-----------------------3--------3--------------3-----------|
Tap to rate this tab
# A B C D E F G H I J K L M N O P Q R S T U V W X Y Z