Song name
# A B C D E F G H I J K L M N O P Q R S T U V W X Y Z

Leeland - Follow You chords

Highlighted       Show chord diagrams
Here are the chord variations used in this song: (Standard Tuning)
    A   Asus4  Bm7   D/F#   D    Em     G
e|--0-----0-----0-----0-----2-----3-----3--|
B|--2-----3-----3-----3-----3-----0-----0--|
G|--2-----2-----2-----2-----2-----0-----0--|
D|--2-----2-----4-----0-----0-----0-----0--|
A|--0-----0-----2-----0-----x-----2-----x--|
E|--x-----x-----x-----2-----x-----0-----3--|


Intro:
Play the following D chord pattern:
e|-2-0-2---2---0-2---------------------------| \                 
B|-3-3-3---3---3-3---------------------------|  \               
G|-2-2-2---2---2-2---------------------------|   \             
D|-0-0-0---0---0-0---------------------------|    \         
A|-x-x-x---x---x-x---------------------------|     \  
E|-x-x-x---x---x-x---------------------------|      \       
                                                     \    
Guitar 2 (optional piano melody):                  Play 2x
                                                     /  
e|-----------0-----------------0----3--2-----|      /
B|------3---------2-------3------------------|     /   
G|-------------------------------------------|    /      
D|-------------------------------------------|   /    
A|-------------------------------------------|  /     
E|-------------------------------------------| /       

Verse 1:
    D
You live among the least of these
    Asus4
The weary and the weak
    Bm7                       G
And it would be a tragedy for me to turn away
D
All my needs you have supplied.
     Asus4          A
When I was dead you gave me life
Bm7                             G
How could I not give it away so freely?

Chorus:
Asus4    D
And I'll follow you into the homes of the broken
Asus4               A
Follow you into the world.
Em                     Bm           G
Meet the needs for the poor and the needy God
D
Follow you into the World

Verse 2:
D
Use my hands, use my feet
   Asus4
To make your kingdom come
Bm7
To the corners of the earth
G
Until your work is done
       D
'Cause Faith without works is dead
    Asus4
And on the cross your blood was shed
   Bm7                              G
So how could we not give it away so freely?

(Chorus x2)

Bridge:
  G           D/F#
I give all myself
  G           D/F#
I give all myself
  G           D/F#      Asus4   A
I give all myself... to you.

      G           D/F#
And I give all myself
      G           D/F#
Yes, I give all myself
      G           D/F#      Asus4   A
And I give all myself... to you.

(Chorus x2)





Hope you enjoyed this...
p.s. Don't forget to rate :)
-Toby
Tap to rate this tab
# A B C D E F G H I J K L M N O P Q R S T U V W X Y Z