Song name
# A B C D E F G H I J K L M N O P Q R S T U V W X Y Z

Leeland - The Great Awakening tab

 
I couldn't find a tab of this song so I came up with this little version.
Here is a layout of chord changes.  This mimics the piano part.


 E ----0--0--0--0--0-0--0-0--0--0--0--0--0------|
 B ----2--2--2--2--2-3--3-2--2--2--2--2--2------|
 G ----2--2--2--2--2-2--2-2--2--2--2--2--2------|
 D ----2--2--2--2--2-2--2-2--2--2--2--2--2------|
 A ----0--0--0--0--0-0--0-0--0--0--0--0--0------|
 E -----------------------0--0--0--0--0--0------|   
       
 E ----2--2--2--2--2--2--0--0--0--0--0--0-------|
 B ----3--3--3--2--2--2--0--0--0--0--0--0-------|
 G ----2--2--2--2--2--2--2--2--2--1--1--1-------|
 D ----0--0--0--4--4--4--2--2--2--2--2--2-------|
 A ----------------------2--2--2--2--2--2-------|
 E -------------------------------0--0--0-------|  

     *Repeat*

     *End verse with this:
 E ----0--0--0--0---0---------------------------|
 B ----2--2--2--2---0---------------------------|
 G ----2--2--2--2---1---------------------------|
 D ----2--2--2--2---2---------------------------|
 A ---------------------------------------------|
 E ---------------------------------------------|   
    "Surely then it multiplies"

       
This repeats for the whole song.
Listen for a more clear strumming pattern.  Match piano in the studio version.
Tap to rate this tab
 
# A B C D E F G H I J K L M N O P Q R S T U V W X Y Z