Song name
# A B C D E F G H I J K L M N O P Q R S T U V W X Y Z

Leeland - Carried To The Table tab

-------------------------------------------------------------------------------
			     CARRIED TO THE TABLE - Leeland
-------------------------------------------------------------------------------
Tabbed by: fiveironbrad

Here's the intro to Carried to the Table, which is also played for about half
of the verses.  I'm not completely positive about the tab for the rest of the
song (which is why I only tabbed out the intro), but perhaps I will sit down
and try and figure it all out... perhaps.

    Bm
e|---------------------------------------------------------------------------|
B|-----------3-----------3-----------3-----------0---------------------------|
G|-----0-----------0-----------0-----------0---------------------------------|
D|--------4-----------4-----------4-----------4------------------------------|
A|--2-----------2-----------2-----------0------------------------------------|
E|---------------------------------------------------------------------------|

    G
e|---------------------------------------------------------------------------|
B|-----------0-----------0-----------0-----------0---------------------------|
G|-----0-----------0-----------0-----------0---------------------------------|
D|--------0-----------0-----------0-----------0------------------------------|
A|--------------------------------------0------------------------------------|
E|--3-----------3-----------3-------------------------(repeat)---------------|


===============================================================================
Tap to rate this tab
 
# A B C D E F G H I J K L M N O P Q R S T U V W X Y Z