Song name
# A B C D E F G H I J K L M N O P Q R S T U V W X Y Z

Leetstreet Boys - Yuri The Only One tab

-----------------------------------------------------------------------------
                   YURI THE ONLY ONE - The L33tStr33t Boys
-----------------------------------------------------------------------------
Tabbed by: Lawlin
Email: sakuratenshi66@aol.com (There will be a YouTube link up here soon)
Tuning: Standard E!
Link http://www.leetstreetboys.com/

Rambling: So this tab isn't that hard, but I'm putting it in the "Intermediate" category 
I noticed a lack of The L33tStr33t Boys tabs, so I thought I'd post one of my own. Hope 
guys can figure this out; it's my first tab I've posted....

Important Notes: In the verse part, along with the 2nd guitar part in the intro, the 
of notes travels back and forth between 6 and 8.

Intro
e|-----------/11---9-------------------------------|
B|---------9------------------9-/12--10------------|
G|--9---11--------------9--11------------9--11-(9)-|
D|-------------------------------------------------|
A|-------------------------------------------------|
E|-------------------------------------------------|
|
|
e|----------------------------------------------------------------------|
B|----------------------------------------------------------------------|
G|----------------------------------------------------------------------|
D|----------------4--------------------6-------------2------------------|
A|--2-------------2-2-2-2-2-2-2-2-2-2-4-4-4-4-4-4-4-0-0-0-0-0-0-0-0-0-0-|
E|--0-0-0-0-0-0-0-------------------------------------------------------|
     [~~~~P.M~~~~] [~~~~~~~~~~~~~~~~~] [~~~~~~~~~~~] [~~~~~~~~~~~~~~~~]
(repeat~)

Verse
e|----------------------------------------------------------------------|
B|----------------------------------------------------------------------|
G|----------------------------------------------------------------------|
D|----------------4-------------------6-------------2-------------------|
A|--2-------------2-2-2-2-2-2-2-2{2-2}4-4-4-4-4-4-4-0-0-0-0-0-0-0-0{0-0-|
E|--0-0-0-0-0-0-0-------------------------------------------------------|
    [~~~~P.M~~~~] [~~~~~~~~~~~~~~~~~] [~~~~~~~~~~~] [~~~~~~~~~~~~~~~~]

  ---------------------------------------------------------------------|
  ---------------------------------------------------------------------|
  ---------------------------------------------------------------------|
  ----------------9-------------------6-------------2------------------|
  --7-------------6-6-6-6-6-6-6-6{6-6}4-4-4-4-4-4-4-0-0-0-0-0-0-0-0{0-0|
  --0-0-0-0-0-0-0------------------------------------------------------|
    [~~~~P.M~~~~] {~~~~~~~~~~~~~~~~~] [~~~~~~~~~~~] [~~~~~~~~~~~~~~~]
(repeat~)

Prechorus
e|--12----12----12----12----12----12----12----12---|
B|-----12----12----12----12----12----12----10----9-|
G|-------------------------------------------------| (repeat 3 times)
D|-------------------------------------------------|
A|-------------------------------------------------|
E|-------------------------------------------------|
 |
 |
e|----------------------------------------------------------------------|
B|----------------------------------------------------------------------|
G|----------------------------------------------------------------------|
D|----------------2---------------------------------4-------------------|
A|--4-------------0-0-0-0-0-0-0-0{0-0}2-------------2-2-2-2-2-2-2-2{2-2-|
E|--2-2-2-2-2-2-2---------------------0-0-0-0-0-0-0---------------------|
    [~~~~P.M~~~~] {~~~~~~~~~~~~~~~~~] [~~~~~~~~~~~] [~~~~~~~~~~~~~~~~]

  ----0--------|
  ----1--------|
  ----2--------|
  ----2--------|
  ----0--------|
  -------------|
(only play this ONCE per prechorus! ^-^)

Chorus
e|--0-----0--0---------------------------------------------|
B|--0-----0--0-4-----4--4{4-4}-5-----5--5-2-----2--2{2-2}--|
G|--1-----1--1-4-----4--4{4-4}-6-----6--6-2-----2--2{2-2}--|
D|--2-----2--2-4-----4--4{4-4}-6-----6--6-2-----2--2{2-2}--|
A|--2-----2--2-2-----2--2{2-2}-4-----4--4-0-----0--0{0-0}--|
E|--0-----0--0---------------------------------------------|
(repeat three times~)

  -----0-----|
  -----1-----|
  -----2-----|
  --4--2-----|
  --4--0-----|
  --2--------|

Bridge
e|------------(0)---------|
B|--(5)--(2)--(0)--(4)----|
G|--(6)--(2)--(1)--(4)----|
D|---6----2---(2)---4-----|
A|---4----0----2----2-----|
E|-------------0----------|
(repeat)

  ----------------------------0--0--0--0----|
  ----5--5--5--5--2--2--2--2--0--0--0--0----|
  ----6--6--6--6--2--2--2--2--1--1--1--1----|
  ----6--6--6--6--2--2--2--2--2--2--2--2----|
  ----4--4--4--4--0--0--0--0--2--2--2--2----|
  ----------------------------0--0--0--0----|
(repeat)

  ----------------------|
  ----------------------|
  ----------------------|
  ----4-4-4-4-4-4-4-4---|
  ----2-2-2-2-2-2-2-2---|
  ----------------------|


FORM:

[Intro 8 bars][Verse 16 bars][Prechorus 7 bars][Chorus 14 bars][Interlude 4 bars][Verse 
bars][Prechorus 7 bars][Chorus 14 bars][Bridge 16 bars][Outro Chorus 26 bars]
Tap to rate this tab
 
# A B C D E F G H I J K L M N O P Q R S T U V W X Y Z