Song name
# A B C D E F G H I J K L M N O P Q R S T U V W X Y Z

Leetstreet Boys - Shes So Kawaii tab

Song: She's So Kawaii
Artist: LeetStreet Boys
Album: Otaku Hearts
Year: 2010
Tabbed By: Lito290

|-------------11-------------11-------------------------|
|---13--11--9------13--11--9-----13--11--9--11--13--11--|
|-------------------------------------------------------|
|-------------------------------------------------------|
|-------------------------------------------------------|
|-------------------------------------------------------|

|-------------11-------------11-----11-15-15--15--16--13|
|---13--11--9------13--11--9----------------------------|
|-------------------------------------------------------|
|-------------------------------------------------------|
|-------------------------------------------------------|
|-------------------------------------------------------|
Tap to rate this tab
# A B C D E F G H I J K L M N O P Q R S T U V W X Y Z