Song name
# A B C D E F G H I J K L M N O P Q R S T U V W X Y Z

Leevi And The Leavings - Unelmia Ja Toimistohommia tab

This is my first tab and very simple.
Comments Please. 

E|------------------15--13--12---------------------------------------------------|
B|------13--12------------------13--12--13--15--13--12---------------------------|
G|--14----------12--------------------------------------12-----12--14--12--14----|3x->  
D|----------------------------------------------------------14-----------------14|
A|-------------------------------------------------------------------------------|
E|-------------------------------------------------------------------------------|   

--------------------------->

E|-----------------15--13--12-----15--13--12-------------------------|
B|-----13--12-----------------13--------------13--12--13-------------|
G|--14---------12-----------------------------------------14--12-----|one times
D|-------------------------------------------------------------------|
A|-------------------------------------------------------------------|
E|-------------------------------------------------------------------|
Tap to rate this tab
# A B C D E F G H I J K L M N O P Q R S T U V W X Y Z