Song name
# A B C D E F G H I J K L M N O P Q R S T U V W X Y Z

Leevi And The Leavings - Unelmia Ja Toimistohommia tab

e|-------12---------15---------12-------15-13-12----------------15------------------------|
B|----13---------13---------13----15-------------13-12-13-15-13---------------------------|
G|-14---------14---------14----------12----------------------------12----12-14-12-14------|
D|--------------------------------------------------------------------14-------------14---|
A|----------------------------------------------------------------------------------------|
E|----------------------------------------------------------------------------------------|

e|----12-------15-13-12----------------15-------------------------------------------------|
B|-------15-------------13-12-13-15-13----------------------------------------------------|
G|-14-------12----------------------------12----12-14-12-14-------------------------------|
D|-------------------------------------------14-------------14----------------------------|x2
A|----------------------------------------------------------------------------------------|
E|----------------------------------------------------------------------------------------|

e|----12-------15-13-12----15-13-12-------------------------------------------------------|
B|-------15-------------13----------13-12-13----------------------------------------------|
G|-14-------12-------------------------------14-12----------------------------------------|
D|----------------------------------------------------------------------------------------|
A|----------------------------------------------------------------------------------------|
E|----------------------------------------------------------------------------------------|
Tap to rate this tab
# A B C D E F G H I J K L M N O P Q R S T U V W X Y Z