Song name
# A B C D E F G H I J K L M N O P Q R S T U V W X Y Z

Left Alone - Would You Stay Now tab

One of the easiest songs i know,but also one of the best.

Intro
e|-----------------------------------------------|
B|-----------------------------------------------|
G|--5---5-------7-7-7-7-7-7-7-7-7-7-7-7-7-7-7-7--|
D|--5---5-5---5-7-7-7-7-7-7-7-7-7-7-7-7-7-7-7-7--|
A|--3---3-5---5-5-5-5-5-5-5-5-5-5-5-5-5-5-5-5-5--|
E|--------3---3----------------------------------|

Main Riff
e|----------------------------------------------------------------------|
B|----------------------------------------------------------------------|
G|--5-5-5-5-5-5-5-5-------------------7-7-7-7-7-7-7-7-7-7-7-7-7-7-7-7-7-|
D|--5-5-5-5-5-5-5-5--5-5-5-5-5-5-5-5--7-7-7-7-7-7-7-7-7-7-7-7-7-7-7-7-7-|
A|--3-3-3-3-3-3-3-3--5-5-5-5-5-5-5-5--5-5-5-5-5-5-5-5-5-5-5-5-5-5-5-5-5-|
E|-------------------3-3-3-3-3-3-3-3------------------------------------|

and thats basically it...
Tap to rate this tab
# A B C D E F G H I J K L M N O P Q R S T U V W X Y Z