Song name
# A B C D E F G H I J K L M N O P Q R S T U V W X Y Z

Left Alone - By My Side tab

e-------------------------------------------------------------|
B--------------------7~--7~--797~--7775~--57999757~--7779999--|
G----5~--575~--57---------------------------------------------|
D-------------------------------------------------------------|
A-------------------------------------------------------------|
E-------------------------------------------------------------|

then...

e-----------------------------------------------------------------------|
B--------------------7~--7~--797~--7775~--57999757~--9~--7~--5~---------|
G----5~--575~--57------------------------------------------------8~--5~-|
D-----------------------------------------------------------------------|
A-----------------------------------------------------------------------|
E-----------------------------------------------------------------------|


i think its like 95% accurate...
Tap to rate this tab
# A B C D E F G H I J K L M N O P Q R S T U V W X Y Z