Song name
# A B C D E F G H I J K L M N O P Q R S T U V W X Y Z

Left Alone - Sinner tab

Left Alone
Dead American Radio
The Sinner


Intro:
--------------------------------12-13-12---------|
---------13-13---15-13-------15----------15-13---|
---12-12--------------12-------------------------|
-------------------------------------------------|
-------------------------------------------------| x2
-------------------------------------------------|


Verse:

---------------------------------------------------------------------|
---------------------------------------------------------------------|
---5-5-5-5-5-5-5-5-----------------3-3-3-3-3-3-3-3-5-5-5-5-5-5-5-5---|
---5-5-5-5-5-5-5-5-5-5-5-5-5-5-5-5-3-3-3-3-3-3-3-3-5-5-5-5-5-5-5-5---|
---3-3-3-3-3-3-3-3-5-5-5-5-5-5-5-5-1-1-1-1-1-1-1-1-3-3-3-3-3-3-3-3---|
-------------------3-3-3-3-3-3-3-3-----------------------------------|


Pre-Chorus:
-------|
-------|
---2---|
---2---|
---0---| x32
-------|


Chorus:
-------------------------------------|
-------------------------------------|
---5-5-5-5---------------------------|
---5-5-5-5-5-5-5-5-3-3-3-3-3-3-3-3---|
---3-3-3-3-5-5-5-5-3-3-3-3-3-3-3-3---|
-----------3-3-3-3-1-1-1-1-1-1-1-1---|
Tap to rate this tab
# A B C D E F G H I J K L M N O P Q R S T U V W X Y Z