Song name
# A B C D E F G H I J K L M N O P Q R S T U V W X Y Z

Left Alone - New York City tab

Left Alone
Dead American Radio
New York City


Intro:
---------------------------------------------------------------------|
---------------------------------------------------------------------|
---2-2-2-2-6-------7-7-7-7-2-------2-2-2-2-6-6-6-6-4-4-4-4-4-4-4-4---|
---2-2-2-2-6-------7-7-7-7-2-------2-2-2-2-6-6-6-6-4-4-4-4-4-4-4-4---|
---0-0-0-0-4-------5-5-5-5-0-------0-0-0-0-4-4-4-4-2-2-2-2-2-2-2-2---| x2
---------------------------------------------------------------------|


Verse:
---------------------------------------------------------------------|
---------------------------------------------------------------------|
---2-2-2-2-6-6-6-6-7-7-7-7-2-2-2-2-2-2-2-2-6-6-6-6-4-4-4-4-4-4-4-4---|
---2-2-2-2-6-6-6-6-7-7-7-7-2-2-2-2-2-2-2-2-6-6-6-6-4-4-4-4-4-4-4-4---|
---0-0-0-0-4-4-4-4-5-5-5-5-0-0-0-0-0-0-0-0-4-4-4-4-2-2-2-2-2-2-2-2---| x2
---------------------------------------------------------------------|
   pm............................................................pm


Chorus:
---------------------------------------------------------------------|
---------------------------------------------------------------------|
---2-2-2-2-6-6-6-6-7-7-7-7-2-2-2-2-2-2-2-2-6-6-6-6-4-4-4-4-4-4-4-4---|
---2-2-2-2-6-6-6-6-7-7-7-7-2-2-2-2-2-2-2-2-6-6-6-6-4-4-4-4-4-4-4-4---|
---0-0-0-0-4-4-4-4-5-5-5-5-0-0-0-0-0-0-0-0-4-4-4-4-2-2-2-2-2-2-2-2---| x2
---------------------------------------------------------------------|
                                                  pm.............pm

Bridge:
---------------------------------------------------------------------|
---------------------------------------------------------------------|
---2-------6-------7-------2-------2-------6-------4-------4---------|
---2-------6-------7-------2-------2-------6-------4-------4---------|
---0-------4-------5-------0-------0-------4-------2-------2---------|
---------------------------------------------------------------------|
Tap to rate this tab
 
# A B C D E F G H I J K L M N O P Q R S T U V W X Y Z