Song name
# A B C D E F G H I J K L M N O P Q R S T U V W X Y Z

Left Alone - Heart Riot tab


If you play this part, you can play the whole song


e--------------------------------------|
b--------------------------------------|
g-5-------3---5------------------------|
d-5---3---3---5------------------------|
a-3---3---1---3------------------------|
E-----1--------------------------------|

Just for the outro
"Even thou I am with you
 Even thou I am with you
 Even thou I am with you"

It's this part:

e--------------------------------------|
b--------------------------------------|
g-3---5--------------------------------|
d-3---5--------------------------------|
a-1---3--------------------------------|
E--------------------------------------|
Tap to rate this tab
 
# A B C D E F G H I J K L M N O P Q R S T U V W X Y Z