Song name
# A B C D E F G H I J K L M N O P Q R S T U V W X Y Z

Left Alone - Another Feeling tab

Left Alone
Another Feeling
* (repeat in upstroke)
^ (let ring)

Intro/Verse
E---------------|
B---------------|
G-3*-----6*--5*-|
D-3*-----6*--5*-|
A-5*-----8*--7*-|
E---------------|

Chorus
E-----------------|
B-----------------|
G-5^------3^------|
D-5^--5^--3^--3^--|
A-7^--5^--5^--3^--|
E-----7^------5^--|

Rythm is pretty easy, have fun!
Tap to rate this tab
# A B C D E F G H I J K L M N O P Q R S T U V W X Y Z