Song name
# A B C D E F G H I J K L M N O P Q R S T U V W X Y Z

Left Alone - Porcelain chords

Highlighted       Show chord diagrams
Left Alone - Porcelain 

C                                          G
Never thought she'd ever wanna piece of my love
Am                                  F
Blue eyed girls never seem to wanna talk
C                                          G
Never thought she'd ever wanna piece of my heart
Am                                  F
Cause guys like me never end up on top
C                                          G
Never thought she'd ever wanna piece of my love
Am                                  F
Blue eyed girls never seem to wanna talk
C                                          G
Never thought she'd ever wanna piece of my heart
Am                                  F
Cause guys like me schould never end up on top

C                                                             G
Cause I want you to feel everything that was real in my heart love
D                                 F
She's an angel that fell from the top
C                                                             G
Cause I want you to feel everything that was real in my heart love
D                                 F
She's an angel that fell from the top

C                                         G
Never thought I'd ever learn to love and hate now
Am                                        F
But that comes easy after what you put me through
C                                         G
Never thought I'd ever learn to forget you now
Am                              F
Seems nothing you said was ever true

C                                                             G
Cause I want you to feel everything that was real in my heart love
D                                 F
She's an angel that fell from the top
C                                                             G
Cause I want you to feel everything that was real in my heart love
D                                 F
She's an angel that fell from the top (fell from the top) 

solo: C, G, Am, F (2x)

e|--------------------------------------------------------------------------|
B|---------------------------------------------------------15/13--15-13-15--|
G|-5--5-7-9-7-5--5-7-9-7-5--7-7-5-7-9-10-9-10-12--14-12-14------------------|
D|--------------------------------------------------------------------------|
A|--------------------------------------------------------------------------|
E|--------------------------------------------------------------------------|

e|--------------------------------------------------------------------------|
B|-17-15-13-17-15-13--15-15-15/17-15-13~------------------------------------|
G|--------------------------------------------------------------------------|
D|--------------------------------------------------------------------------|
A|--------------------------------------------------------------------------|
E|--------------------------------------------------------------------------|

C                                                             G
Cause I want you to feel everything that was real in my heart love
D                                 F
She's an angel that fell from the top
C                                                             G
Cause I want you to feel everything that was real in my heart love
D                                 F
She's an angel that fell from the top (fell from the top) 

outro: C, G, Am, F

e|--------------------------------------------------------------------------|
B|--------------------------------------------------------------------------|
G|-5--5/7-9-7-5--5/7-9-7-5--7-7-5~------------------------------------------|
D|--------------------------------------------------------------------------|
A|--------------------------------------------------------------------------|
E|--------------------------------------------------------------------------|

end on C


listen to the song to get the rhythm right

heartbreaking song by Left Alone,
peace out hombres, sinipunk out



Tap to rate this tab
 
# A B C D E F G H I J K L M N O P Q R S T U V W X Y Z