Left Alone - I Hate Emo tab

Intro/Verse Riff 1
        
E||------------------------------|----------------------------|
B||------------------------------|----------------------------|
G||------------------------------|----------------------------|
D||-----2-2----2-2----2-2----2-2-|-----2-2----2-2-------------|
A||--3-------------3-------------|--3-------------3-----0--2--|
E||---------3-------------3------|---------3---------3--------|

Verse Riff 2

     
E||------------------------------|----------------------------|
B||------------------------------|----------------------------|
G||------------------------------|----------------------------|
D||-----2-2----2-2----2-2----2-2-|-----2-2----2-2-------------|
A||--3-------------3-------------|--3-------------3--3--2--0--|
E||---------3-------------3------|---------3------------------|

Chorus

                               
E||----------------------------|---------------------------|
B||----------------------------|---------------------------|
G||------2------------2--------|------2--------------------|
D||---------3---3--------3---3-|---------3---3-------------|
A||-----------3------------3---|-----------3---3-----0--2--|
E||--1------------1------------|--1---------------3--------|

Solo

 E                                                         
E||------------------------9---9s-12--------|-----14-14-14-12-11--------------|
B||--------------------9--------------------|--------------------10-9~--------|
G||-----------------------------------------|---------------------------------|
D||-----------------------------------------|---------------------------------|
A||-----------------------------------------|---------------------------------|
E||-----------------------------------------|---------------------------------|

Structure

Intro
Verse Riff 1
Verse Riff 2
Chorus
Verse Riff 1
Verse Riff 2
Chorus 
Verse Riff 1
Verse Riff 2
Chorus
Verse Riff 1
Verse Riff 2
Chorus
Verse Riff 2
Solo
Verse Riff 1
Tap to rate this tab
 
# A B C D E F G H I J K L M N O P Q R S T U V W X Y Z