Song name
# A B C D E F G H I J K L M N O P Q R S T U V W X Y Z

Left Alone - Lonely Starts Broken Hearts tab

Help us improve GuitareTab! Take a short survey!
This is a pretty easy song

Intro:

e-------------------------------------|
B-------------------------------------|
G--7---------------4------------------|
D--7-------5-------4-------7----------|
A--5--x8---5-------2--x8---7----------|
E----------3--x8-----------5--x8------| x2

then

e-----------------------------------------|
B-----------------------------------------|
G--------7----------7----------7----4-----|
D--5--7--7----5--7--7----5--7--7----4--7--|
A--5--7--5----5--7--5----5--7--5----2--7--|
E--3--5-------3--5-------3--5----------5--| x2

Verse:

e-------------------------------------|
B-------------------------------------|
G--7---------------4------------------|
D--7-------5-------4-------7----------|
A--5--x8---5-------2--x8---7----------|
E----------3--x8-----------5--x8------| x2

then just stum this once:

e----
B----
G----
D-7--
A-7--
E-5--

Chorus:

e-------------------------------------|
B-------------------------------------|
G--7---------------4------------------|
D--7-------5-------4-------7----------|
A--5--x4---5-------2--x4---7----------|
E----------3--x4-----------5--x4------| x3

then

e-----------|
B-----------|
G--4--------|
D--4---7----|
A--2---7----|
E------5----|

Then repeat the whole chorus
Then repeat the verse
Then repeat the chorus again
But play the end part 4 times instead of once
and end on

e-----
B-----
G--7--
D--7--
A--5--
E-----

Listen to the song for strumming patterns


Left Alone official Website ----> http://www.leftalone.net/
Related for Lonely Starts Broken Hearts tab