Song name
# A B C D E F G H I J K L M N O P Q R S T U V W X Y Z

Left Alone - Dead American Radio Epk tab

----------------------------------------------------------------------------
               Dead American Radio EPK - Left Alone
----------------------------------------------------------------------------
Tabbed by:Matt Dale
Email:Wrdales@comcast.net

Tuning:standard


intro/chorus - play accustic or clean
e|----------------------------------------|
B|----------------------------------------|
G|--7-(5)---------------------------------|
D|--7-----5-(5)-9-(5)-7-(2)-9-(2)-11-(1)--|
A|--5-----5-----9-----7-----9-----11------|
E|--------3-----7-----5-----7-----9-------|

verse - accustic or clean
e|---------------------------|
B|---------------------------|
G|--7-(5)--------------------|
D|--7-----5-(5)-9-(5)-7-(5)--|
A|--5-----5-----9-----7------|
E|--------3-----7-----5------|
                                         PLEASE RATE!!!!

| /  slide up
| \  slide down
| h  hammer-on
| p  pull-off
| ~  vibrato
| +  harmonic
| x  Mute note
============================================================================
Tap to rate this tab
# A B C D E F G H I J K L M N O P Q R S T U V W X Y Z