Song name
# A B C D E F G H I J K L M N O P Q R S T U V W X Y Z

Left Alone - 4 Weeks tab

Left Alone
Dead American Radio
4 Weeks

Verse (SKAAAAAAAAAAAAA):
---x-3-x-3-x-3-x-3-x-5-x-5-x-5-x-5-x-8--x-8--x-8--x-8--x-3-x-3-x-3-x-3---|
---x-3-x-3-x-3-x-3-x-5-x-5-x-5-x-5-x-8--x-8--x-8--x-8--x-3-x-3-x-3-x-3---|
---x-4-x-4-x-4-x-4-x-6-x-6-x-6-x-6-x-9--x-9--x-9--x-9--x-4-x-4-x-4-x-4---|
---x-5-x-5-x-5-x-5-x-7-x-7-x-7-x-7-x-10-x-10-x-10-x-10-x-5-x-5-x-5-x-5---|
-------------------------------------------------------------------------| x6
-------------------------------------------------------------------------|

Chorus:
---3-3-3-3-0-0-0-0-0-0-0-0-3-3-3-3---|
---3-3-3-3-2-2-2-2-1-1-1-1-3-3-3-3---|
---0-0-0-0-2-2-2-2-0-0-0-0-0-0-0-0---|
---0-0-0-0-2-2-2-2-2-2-2-2-0-0-0-0---|
---x-x-x-x-0-0-0-0-3-3-3-3-x-x-x-x---| x2
---3-3-3-3-----------------3-3-3-3---|
Tap to rate this tab
 
# A B C D E F G H I J K L M N O P Q R S T U V W X Y Z