Song name
# A B C D E F G H I J K L M N O P Q R S T U V W X Y Z

Left Alone - Done Wrong tab

Left Alone
Dead American Radio
Done Wrong

Intro/Verse:
---0-0-0-0-0-0-0-0-1-1-1-1-3-3-3-3---|
---1-1-1-1-2-2-2-2-1-1-1-1-3-3-3-3---|
---0-0-0-0-2-2-2-2-2-2-2-2-0-0-0-0---|
---2-2-2-2-2-2-2-2-3-3-3-3-0-0-0-0---|
---3-3-3-3-0-0-0-0---------x-x-x-x---|
---------------------------3-3-3-3---|

Chorus:
---8-------5-------1-------3------------|
---8-------5-------1-------3------------|
---9-------6-------2-------4------------|
---10------7-------3-------5------------|
----------------------------------------|
----------------------------------------|
Tap to rate this tab
# A B C D E F G H I J K L M N O P Q R S T U V W X Y Z