Song name
# A B C D E F G H I J K L M N O P Q R S T U V W X Y Z

Left Alone - Looking Foward To Yesterday tab

Left Alone
Backyard City Rockers
Looking Foward To Yesterday

Intro/Verse:
-------------------------------------|
-------------------------------------|
---7-7-7-7---------4-4-4-4-2-2-4-6---|
---7-7-7-7-5-5-5-5-4-4-4-4-2-2-4-6---|
---5-5-5-5-5-5-5-5-2-2-2-2-0-0-2-4---|
-----------3-3-3-3-------------------|

Bridge:
---------------------------------------------------------------------|
---------------------------------------------------------------------|
---7-7-7-7---------4-4-4-4-2-2-2-2-7-7-7-7---------4-4-4-4-2-2-4-6---|
---7-7-7-7-5-5-5-5-4-4-4-4-2-2-2-2-7-7-7-7-5-5-5-5-4-4-4-4-2-2-4-6---|
---5-5-5-5-5-5-5-5-2-2-2-2-0-0-0-0-5-5-5-5-5-5-5-5-2-2-2-2-0-0-2-4---|
-----------3-3-3-3-------------------------3-3-3-3-------------------|
  pm................................................pm


Chorus:
-------------------------------------|
-------------------------------------|
---7-7-7-7---------4-4-4-4-2-2-2-2---|
---7-7-7-7-5-5-5-5-4-4-4-4-2-2-2-2---|
---5-5-5-5-5-5-5-5-2-2-2-2-0-0-0-0---| x4
-----------3-3-3-3-------------------|
Tap to rate this tab
 
# A B C D E F G H I J K L M N O P Q R S T U V W X Y Z