Song name
# A B C D E F G H I J K L M N O P Q R S T U V W X Y Z

Left Alone - Lonely Starts And Broken Hearts tab

Left Alone
Lonely Starts and Broken Hearts
Lonely Starts and Broken Hearts


Intro/Verse/Chorus:
-------------------------------------|
-------------------------------------|
---8-8-8-8---------5-5-5-5-----------|
---8-8-8-8-6-6-6-6-5-5-5-5-8-8-8-8---|
---6-6-6-6-6-6-6-6-3-3-3-3-8-8-8-8---| x2
-----------4-4-4-4---------6-6-6-6---|


Bridge:
---------------------------------------------------------|
---------------------------------------------------------|
-------8-8-8-8---8-8-8-8-8---8-8-8-8-8-5-----------------|
---6-8-8-8-8-8-6-8-8-8-8-8-6-8-8-8-8-8-5-------8---------|
---6-8-6-6-6-6-6-8-6-6-6-6-6-8-6-6-6-6-3-------8---------| x2
---4-6---------4-6---------4-6-----------------6---------|

Solo:
-------------------------------------      ---------------------|
-------------------------------------      ---------------------|
---8-8-8-8---------5-5-5-5-----------      ---5-----------------|
-----------6-6-6-6---------8-8-8-8---      -----------8---------|
------------------------------------- x3   ---------------------| x1
-------------------------------------      ---------------------|
Tap to rate this tab
 
# A B C D E F G H I J K L M N O P Q R S T U V W X Y Z