Song name
# A B C D E F G H I J K L M N O P Q R S T U V W X Y Z

Left Boy - Everything Flows tab

We need more left boy tabs & chords!
Great song, be sure to pick with your fingers to get a soft sound, avoid plectrum.
Just listen to the song to get the timing right.


Intro:

e|------------------------------------------------------|
B|------------------------------------------------------|
G|------------------------------------------------------|  x2 
D|------------------------------------------------------|
A|--10--9--5-5-5--2-7--5--2-2-2--5-5-----------2---2----|
E|------------------------------------5-5-5--3---3---3--|


Main Part(which is played throughout the WHOLE song):
e|------------------------------------------------------|
B|------------------------------------------------------|
G|------------------------------------------------------|  x till end
D|------------------------------------------------------|
A|-------7--10--3--3/2-----5----------------------------|
E|--3/5-----------------0-----3--5----------------------|



Have fun!!
Tap to rate this tab
# A B C D E F G H I J K L M N O P Q R S T U V W X Y Z