Song name
# A B C D E F G H I J K L M N O P Q R S T U V W X Y Z

Left Boy - Everything Flows tab

INTRO

 hit the g-string two times after each tone


|-------------------------|-------------------------|
|-2/10---9----5----5----5-|-2/7----5----2----2----2-|
|-------------------------|-------------------------|
|-------------------------|-------------------------|
|-------------------------|-------------------------|
|-------------------------|-------------------------|

|-------------------------|--3----------3----3----3-|
|-2/5--5----0----0----0---|-0------2----------------|
|-------------------------|-------------------------|
|-------------------------|-------------------------|
|-------------------------|-------------------------|
|-------------------------|-------------------------|




REST OF THE SONG


 also hit the g-string two times after each tone


|--5----------------8-----|--8---8/7----0-----------|
|-------7-----10----------|------------------5------|
|-------------------------|-------------------------|
|-------------------------|-------------------------|
|-------------------------|-------------------------|
|-------------------------|-------------------------|

|---2----3---|
|------------|
|------------|
|------------|
|------------|





http://www.youtube.com/watch?v=P53igB6yS5A
http://leftboy.com/permanent-party
Tap to rate this tab
# A B C D E F G H I J K L M N O P Q R S T U V W X Y Z