Song name
# A B C D E F G H I J K L M N O P Q R S T U V W X Y Z

Left Hand Solution - Solitary Fallen Angel tab

-------------------------------------------------------------------------------
			     Left Hand Solution - Solitary Fallen Angel
-------------------------------------------------------------------------------
Tabbed by: SHATAN
Email: jgarnelis@gmail.com

Tuning: DADGBE or lower

e|-------------------------------------------------|
B|-------------------------------------------------|
G|-------------------------------------------------|
D|----5--------0--------1----3--5--0----5--3-------|
A|----5--------0--------1----3--5--0----5--3-------|  2X
D|----5--------0--------1----1--3--0----3--1-------|

e|-------------------------------------------------|
B|-------------------------------------------------|
G|-------------------------------------------------|
D|----3--------1-----------------------------------|
A|----3--------1--------7-8-7-8-7-8-7-8-7----------|
E|----3--------1--------7-8-7-8-7-8-7-8-7----------|

Verse 1

e|-------------------------------------------------|
B|-------------------------------------------------|
G|-------------------------------------------------|
D|----5--------0--------1----3--5--0----5--3-------|
A|----5--------0--------1----3--5--0----5--3-------|  2X
D|----5--------0--------1----1--3--0----3--1-------|


e|-------------------------------------------------|
B|-------------------------------------------------|
G|-------------------------------------------------|
D|----3--------1----------------5--3--------7------|
A|----3--------1--------7-8-7-8-5--3--8--10---10---|
E|----3--------1--------7-8-7-8-5--3---------------|

e|-------------------------------------------------|
B|-------------------------------------------------|
G|-------------------------------------------------|
D|----3--------1-----------------------------------|
A|----3--------1--------7-8-7-8-7-8-7-8-7----------|
E|----3--------1--------7-8-7-8-7-8-7-8-7----------|

e|-------------------------------------------------|
B|-------------------------------------------------|
G|------------------------------------------5----6-|
D|------------------------------------------5----6-|
A|----5-------3-1-0-----------------5-------3----4-|  2X 
E|-5-----7----------5-8-7-5-3----5-----7-----------|

Verse 2

e|-------------------------------------------------|
B|-------------------------------------------------|
G|-------------------------------------------------|
D|----5--------0--------1----3--5--0----5--3-------|
A|----5--------0--------1----3--5--0----5--3-------|  2X
D|----5--------0--------1----1--3--0----3--1-------|


e|-------------------------------------------------|
B|-------------------------------------------------|
G|-------------------------------------------------|
D|----3--------1----------------------------7------|
A|----3--------1--------7-8-7-8-5--3--8--10---10---|
E|----3--------1--------7-8-7-8-5--3---------------|

e|-------------------------------------------------|
B|-------------------------------------------------|
G|-------------------------------------------------|
D|----3--------1-----------------------------------|
A|----3--------1--------7-8-7-8-7-8-7-8-7----------|
E|----3--------1--------7-8-7-8-7-8-7-8-7----------|

e|-------------------------------------------------|
B|-------------------------------------------------|
G|------------------------------------------5----6-|
D|------------------------------------------5----6-|
A|----5-------3-1-0-----------------5-------3----4-|  2X 
E|-5-----7----------5-8-7-5-3----5-----7-----------|



e|-------------------------------------------------|
B|-------------------------------------------------|
G|-------------------------------------------------|
D|----5----------------0--------1---------3--------|
A|----5----------------0--------1----1-------------|
E|----5----------------0--------1------------------|
                                                      4X
e|-------------------------------------------------|
B|-------------------------------------------------|
G|----------------------------------3------5-------|
D|----0----------------1------------3------5-------|
A|----0----------------1--------0-1----1-3---------|
E|----0----------------1---------------------------|


95% correct
Tap to rate this tab
# A B C D E F G H I J K L M N O P Q R S T U V W X Y Z