Song name
# A B C D E F G H I J K L M N O P Q R S T U V W X Y Z

Left Lane Cruiser - Big Mama tab

Intro

-----0-----0-----0-----0-----------------------------------------------------|
-----------------------------------------------------------------------------|
-----------------------------------------------------------------------------|
-----------------------------------------------------------------------------|
-----------------------------------------------------------------------------|
--0--0--0--0--0--0--0--0--0--------------------------------------------------|


Verse (repeat x10)

--0--0-----5p4--0--0---------------------------------------------------------|
-------------------------3b4-------------------------------------------------|
-----------------------------------------------------------------------------|
-----------------------------------------------------------------------------|
-----------------------------------------------------------------------------|
--0--0--0--0----0--0--0--0---------------------------------------------------|


Chorus (repeat x5)

--0--0-----3b4--0--0---------------------------------------------------------|
-------------------------3b4-------------------------------------------------|
-----------------------------------------------------------------------------|
-----------------------------------------------------------------------------|
-----------------------------------------------------------------------------|
--0--0--0--0----0--0--0--0---------------------------------------------------|
Tap to rate this tab
# A B C D E F G H I J K L M N O P Q R S T U V W X Y Z